ISO-10303-21;
HEADER;
FILE_DESCRIPTION (( 'STEP AP203' ),
    '1' );
FILE_NAME ('Q-OZHWP-R2-20-532-M.STEP',
    '2020-12-22T09:16:47',
    ( '' ),
    ( '' ),
    'SwSTEP 2.0',
    'SolidWorks 2020',
    '' );
FILE_SCHEMA (( 'CONFIG_CONTROL_DESIGN' ));
ENDSEC;

DATA;
#1 = EDGE_CURVE ( 'NONE', #30, #257, #316, .T. ) ;
#2 = CLOSED_SHELL ( 'NONE', ( #275, #317, #162, #100, #180, #56, #158, #133, #21, #209 ) ) ;
#3 = DIRECTION ( 'NONE',  ( -0.000000000000000000, 0.000000000000000000, 1.000000000000000000 ) ) ;
#4 = LOCAL_TIME ( 17, 16, 47.00000000000000000, #220 ) ;
#5 = APPLICATION_CONTEXT ( 'configuration controlled 3d designs of mechanical parts and assemblies' ) ;
#6 = CARTESIAN_POINT ( 'NONE',  ( 2.500000000000000888, 0.000000000000000000, 0.000000000000000000 ) ) ;
#7 = APPROVAL_STATUS ( 'not_yet_approved' ) ;
#8 = ORIENTED_EDGE ( 'NONE', *, *, #250, .F. ) ;
#9 = DIRECTION ( 'NONE',  ( -1.000000000000000000, -0.000000000000000000, -0.000000000000000000 ) ) ;
#10 = DATE_TIME_ROLE ( 'creation_date' ) ;
#11 = EDGE_CURVE ( 'NONE', #257, #72, #286, .T. ) ;
#12 = DIRECTION ( 'NONE',  ( 0.000000000000000000, 0.000000000000000000, 1.000000000000000000 ) ) ;
#13 = AXIS2_PLACEMENT_3D ( 'NONE', #310, #224, #305 ) ;
#14 = CALENDAR_DATE ( 2020, 22, 12 ) ;
#15 = CARTESIAN_POINT ( 'NONE',  ( 2.500000000000000888, 1.224646799147353256E-15, -10.00000000000000000 ) ) ;
#16 = PERSON_AND_ORGANIZATION_ROLE ( 'creator' ) ;
#17 = PRODUCT_DEFINITION ( 'UNKNOWN', '', #89, #241 ) ;
#18 = AXIS2_PLACEMENT_3D ( 'NONE', #287, #55, #308 ) ;
#19 = PLANE ( 'NONE',  #304 ) ;
#20 = DIRECTION ( 'NONE',  ( -1.000000000000000000, -0.000000000000000000, -0.000000000000000000 ) ) ;
#21 = ADVANCED_FACE ( 'NONE', ( #182, #157 ), #261, .F. ) ;
#22 = EDGE_LOOP ( 'NONE', ( #312, #79 ) ) ;
#23 = AXIS2_PLACEMENT_3D ( 'NONE', #85, #163, #318 ) ;
#24 = AXIS2_PLACEMENT_3D ( 'NONE', #151, #70, #46 ) ;
#25 = CARTESIAN_POINT ( 'NONE',  ( -2.500000000000000444, 10.00000000000000000, 0.000000000000000000 ) ) ;
#26 = ORIENTED_EDGE ( 'NONE', *, *, #29, .T. ) ;
#27 = LINE ( 'NONE', #333, #95 ) ;
#28 = ORIENTED_EDGE ( 'NONE', *, *, #44, .F. ) ;
#29 = EDGE_CURVE ( 'NONE', #188, #280, #248, .T. ) ;
#30 = VERTEX_POINT ( 'NONE', #50 ) ;
#31 = CARTESIAN_POINT ( 'NONE',  ( 2.999999999999999112, 12.69999999999999929, 0.000000000000000000 ) ) ;
#32 = AXIS2_PLACEMENT_3D ( 'NONE', #219, #9, #12 ) ;
#33 = EDGE_LOOP ( 'NONE', ( #126, #77 ) ) ;
#34 = APPROVAL ( #114, 'UNSPECIFIED' ) ;
#35 = CIRCLE ( 'NONE', #105, 12.69999999999999929 ) ;
#36 = DIRECTION ( 'NONE',  ( -1.000000000000000000, -0.000000000000000000, -0.000000000000000000 ) ) ;
#37 = CARTESIAN_POINT ( 'NONE',  ( -2.500000000000000444, 0.000000000000000000, 10.00000000000000000 ) ) ;
#38 = DATE_AND_TIME ( #69, #97 ) ;
#39 = DIRECTION ( 'NONE',  ( -1.000000000000000000, -0.000000000000000000, -0.000000000000000000 ) ) ;
#40 = DIRECTION ( 'NONE',  ( 0.000000000000000000, 0.000000000000000000, -1.000000000000000000 ) ) ;
#41 = VECTOR ( 'NONE', #81, 1000.000000000000000 ) ;
#42 = LOCAL_TIME ( 17, 16, 47.00000000000000000, #86 ) ;
#43 = PRODUCT_DEFINITION_SHAPE ( 'NONE', 'NONE',  #17 ) ;
#44 = EDGE_CURVE ( 'NONE', #72, #179, #228, .T. ) ;
#45 = CIRCLE ( 'NONE', #87, 10.00000000000000000 ) ;
#46 = DIRECTION ( 'NONE',  ( 0.000000000000000000, 0.000000000000000000, 1.000000000000000000 ) ) ;
#47 = CC_DESIGN_DATE_AND_TIME_ASSIGNMENT ( #247, #119, ( #276 ) ) ;
#48 = DIRECTION ( 'NONE',  ( -1.000000000000000000, -0.000000000000000000, -0.000000000000000000 ) ) ;
#49 = VERTEX_POINT ( 'NONE', #298 ) ;
#50 = CARTESIAN_POINT ( 'NONE',  ( 2.999999999999999112, 1.224646799147353256E-15, -10.00000000000000000 ) ) ;
#51 = AXIS2_PLACEMENT_3D ( 'NONE', #6, #321, #57 ) ;
#52 = CYLINDRICAL_SURFACE ( 'NONE', #121, 12.69999999999999929 ) ;
#53 = ORIENTED_EDGE ( 'NONE', *, *, #29, .F. ) ;
#54 = ORIENTED_EDGE ( 'NONE', *, *, #238, .F. ) ;
#55 = DIRECTION ( 'NONE',  ( -1.000000000000000000, -0.000000000000000000, -0.000000000000000000 ) ) ;
#56 = ADVANCED_FACE ( 'NONE', ( #263 ), #221, .F. ) ;
#57 = DIRECTION ( 'NONE',  ( 0.000000000000000000, 0.000000000000000000, 1.000000000000000000 ) ) ;
#58 = MECHANICAL_CONTEXT ( 'NONE', #160, 'mechanical' ) ;
#59 = CARTESIAN_POINT ( 'NONE',  ( -1.614212418857619014, 0.000000000000000000, 0.000000000000000000 ) ) ;
#60 = EDGE_CURVE ( 'NONE', #239, #99, #35, .T. ) ;
#61 = PERSON_AND_ORGANIZATION_ROLE ( 'design_supplier' ) ;
#62 = CYLINDRICAL_SURFACE ( 'NONE', #262, 10.00000000000000000 ) ;
#63 = COORDINATED_UNIVERSAL_TIME_OFFSET ( 8, 0, .AHEAD. ) ;
#64 = DIRECTION ( 'NONE',  ( 0.000000000000000000, 0.000000000000000000, 1.000000000000000000 ) ) ;
#65 = APPROVAL_DATE_TIME ( #328, #324 ) ;
#66 = FACE_OUTER_BOUND ( 'NONE', #285, .T. ) ;
#67 = AXIS2_PLACEMENT_3D ( 'NONE', #166, #300, #40 ) ;
#68 = APPROVAL_PERSON_ORGANIZATION ( #145, #288, #137 ) ;
#69 = CALENDAR_DATE ( 2020, 22, 12 ) ;
#70 = DIRECTION ( 'NONE',  ( -1.000000000000000000, -0.000000000000000000, -0.000000000000000000 ) ) ;
#71 = CARTESIAN_POINT ( 'NONE',  ( -1.614212418857619014, 0.000000000000000000, 12.69999999999999929 ) ) ;
#72 = VERTEX_POINT ( 'NONE', #240 ) ;
#73 = FACE_OUTER_BOUND ( 'NONE', #131, .T. ) ;
#74 = ORIENTED_EDGE ( 'NONE', *, *, #213, .F. ) ;
#75 = EDGE_CURVE ( 'NONE', #280, #188, #206, .T. ) ;
#76 = DIRECTION ( 'NONE',  ( 0.000000000000000000, 0.000000000000000000, 1.000000000000000000 ) ) ;
#77 = ORIENTED_EDGE ( 'NONE', *, *, #1, .T. ) ;
#78 = AXIS2_PLACEMENT_3D ( 'NONE', #307, #258, #148 ) ;
#79 = ORIENTED_EDGE ( 'NONE', *, *, #213, .T. ) ;
#80 = ORIENTED_EDGE ( 'NONE', *, *, #264, .F. ) ;
#81 = DIRECTION ( 'NONE',  ( -1.000000000000000000, -0.000000000000000000, -0.000000000000000000 ) ) ;
#82 = EDGE_CURVE ( 'NONE', #49, #103, #45, .T. ) ;
#83 = CIRCLE ( 'NONE', #23, 10.00000000000000000 ) ;
#84 = DIRECTION ( 'NONE',  ( 1.000000000000000000, 0.000000000000000000, 0.000000000000000000 ) ) ;
#85 = CARTESIAN_POINT ( 'NONE',  ( 2.500000000000000888, 0.000000000000000000, 0.000000000000000000 ) ) ;
#86 = COORDINATED_UNIVERSAL_TIME_OFFSET ( 8, 0, .AHEAD. ) ;
#87 = AXIS2_PLACEMENT_3D ( 'NONE', #268, #84, #211 ) ;
#88 = DIRECTION ( 'NONE',  ( 0.000000000000000000, 0.000000000000000000, 1.000000000000000000 ) ) ;
#89 = PRODUCT_DEFINITION_FORMATION_WITH_SPECIFIED_SOURCE ( 'ANY', '', #278, .NOT_KNOWN. ) ;
#90 = COORDINATED_UNIVERSAL_TIME_OFFSET ( 8, 0, .AHEAD. ) ;
#91 = DIRECTION ( 'NONE',  ( 0.000000000000000000, 0.000000000000000000, 1.000000000000000000 ) ) ;
#92 = PERSON_AND_ORGANIZATION ( #152, #142 ) ;
#93 = CARTESIAN_POINT ( 'NONE',  ( -3.000000000000000000, 1.555301434917138433E-15, -12.69999999999999929 ) ) ;
#94 = COORDINATED_UNIVERSAL_TIME_OFFSET ( 8, 0, .AHEAD. ) ;
#95 = VECTOR ( 'NONE', #303, 1000.000000000000000 ) ;
#96 = CARTESIAN_POINT ( 'NONE',  ( 3.000000000000000000, 0.000000000000000000, 12.69999999999999929 ) ) ;
#97 = LOCAL_TIME ( 17, 16, 47.00000000000000000, #90 ) ;
#98 =( NAMED_UNIT ( * ) SI_UNIT ( $, .STERADIAN. ) SOLID_ANGLE_UNIT ( ) );
#99 = VERTEX_POINT ( 'NONE', #93 ) ;
#100 = ADVANCED_FACE ( 'NONE', ( #189 ), #195, .F. ) ;
#101 = DIRECTION ( 'NONE',  ( 0.000000000000000000, 0.000000000000000000, 1.000000000000000000 ) ) ;
#102 = VERTEX_POINT ( 'NONE', #110 ) ;
#103 = VERTEX_POINT ( 'NONE', #37 ) ;
#104 = ORIENTED_EDGE ( 'NONE', *, *, #190, .T. ) ;
#105 = AXIS2_PLACEMENT_3D ( 'NONE', #269, #246, #88 ) ;
#106 = LOCAL_TIME ( 17, 16, 47.00000000000000000, #63 ) ;
#107 = ORIENTED_EDGE ( 'NONE', *, *, #250, .T. ) ;
#108 = EDGE_CURVE ( 'NONE', #103, #322, #272, .T. ) ;
#109 = CC_DESIGN_APPROVAL ( #34, ( #89 ) ) ;
#110 = CARTESIAN_POINT ( 'NONE',  ( -3.000000000000000444, 1.224646799147353256E-15, -10.00000000000000000 ) ) ;
#111 = APPROVAL_DATE_TIME ( #38, #288 ) ;
#112 = FACE_BOUND ( 'NONE', #229, .T. ) ;
#113 = EDGE_LOOP ( 'NONE', ( #26, #104, #216, #232 ) ) ;
#114 = APPROVAL_STATUS ( 'not_yet_approved' ) ;
#115 = VECTOR ( 'NONE', #202, 1000.000000000000000 ) ;
#116 = CARTESIAN_POINT ( 'NONE',  ( -3.000000000000000444, 0.000000000000000000, 0.000000000000000000 ) ) ;
#117 = APPROVAL_ROLE ( '' ) ;
#118 = CARTESIAN_POINT ( 'NONE',  ( 2.500000000000000444, 10.00000000000000000, 0.000000000000000000 ) ) ;
#119 = DATE_TIME_ROLE ( 'classification_date' ) ;
#120 = UNCERTAINTY_MEASURE_WITH_UNIT (LENGTH_MEASURE( 1.000000000000000082E-05 ), #174, 'distance_accuracy_value', 'NONE');
#121 = AXIS2_PLACEMENT_3D ( 'NONE', #146, #125, #76 ) ;
#122 = CC_DESIGN_APPROVAL ( #288, ( #17 ) ) ;
#123 = CC_DESIGN_PERSON_AND_ORGANIZATION_ASSIGNMENT ( #297, #61, ( #89 ) ) ;
#124 = LINE ( 'NONE', #127, #159 ) ;
#125 = DIRECTION ( 'NONE',  ( -1.000000000000000000, -0.000000000000000000, -0.000000000000000000 ) ) ;
#126 = ORIENTED_EDGE ( 'NONE', *, *, #264, .T. ) ;
#127 = CARTESIAN_POINT ( 'NONE',  ( -1.614212418857619014, 1.224646799147353256E-15, -10.00000000000000000 ) ) ;
#128 = EDGE_CURVE ( 'NONE', #179, #72, #83, .T. ) ;
#129 = ORIENTED_EDGE ( 'NONE', *, *, #331, .F. ) ;
#130 =( NAMED_UNIT ( * ) PLANE_ANGLE_UNIT ( ) SI_UNIT ( $, .RADIAN. ) );
#131 = EDGE_LOOP ( 'NONE', ( #291, #203, #156, #271 ) ) ;
#132 = EDGE_LOOP ( 'NONE', ( #8, #80, #194, #311 ) ) ;
#133 = ADVANCED_FACE ( 'NONE', ( #296 ), #243, .T. ) ;
#134 = APPROVAL_PERSON_ORGANIZATION ( #92, #324, #117 ) ;
#135 = AXIS2_PLACEMENT_3D ( 'NONE', #31, #332, #3 ) ;
#136 = DIRECTION ( 'NONE',  ( -0.000000000000000000, 0.000000000000000000, 1.000000000000000000 ) ) ;
#137 = APPROVAL_ROLE ( '' ) ;
#138 = CYLINDRICAL_SURFACE ( 'NONE', #217, 10.00000000000000000 ) ;
#139 = PERSON_AND_ORGANIZATION ( #152, #142 ) ;
#140 = DIRECTION ( 'NONE',  ( 0.000000000000000000, 0.000000000000000000, 1.000000000000000000 ) ) ;
#141 = ORIENTED_EDGE ( 'NONE', *, *, #108, .T. ) ;
#142 = ORGANIZATION ( 'UNSPECIFIED', 'UNSPECIFIED', '' ) ;
#143 = CARTESIAN_POINT ( 'NONE',  ( -1.614212418857619014, 0.000000000000000000, 10.00000000000000000 ) ) ;
#144 = AXIS2_PLACEMENT_3D ( 'NONE', #273, #266, #193 ) ;
#145 = PERSON_AND_ORGANIZATION ( #152, #142 ) ;
#146 = CARTESIAN_POINT ( 'NONE',  ( -1.614212418857619014, 0.000000000000000000, 0.000000000000000000 ) ) ;
#147 = AXIS2_PLACEMENT_3D ( 'NONE', #234, #335, #253 ) ;
#148 = DIRECTION ( 'NONE',  ( 0.000000000000000000, 0.000000000000000000, 1.000000000000000000 ) ) ;
#149 = DIRECTION ( 'NONE',  ( 0.000000000000000000, 0.000000000000000000, 1.000000000000000000 ) ) ;
#150 = ORIENTED_EDGE ( 'NONE', *, *, #183, .F. ) ;
#151 = CARTESIAN_POINT ( 'NONE',  ( -3.000000000000000444, 0.000000000000000000, 0.000000000000000000 ) ) ;
#152 = PERSON ( 'UNSPECIFIED', 'UNSPECIFIED', 'UNSPECIFIED', ('UNSPECIFIED'), ('UNSPECIFIED'), ('UNSPECIFIED') ) ;
#153 = CIRCLE ( 'NONE', #13, 12.69999999999999929 ) ;
#154 = EDGE_LOOP ( 'NONE', ( #54, #259, #141, #175 ) ) ;
#155 = CARTESIAN_POINT ( 'NONE',  ( 3.000000000000000000, 1.555301434917138433E-15, -12.69999999999999929 ) ) ;
#156 = ORIENTED_EDGE ( 'NONE', *, *, #183, .T. ) ;
#157 = FACE_BOUND ( 'NONE', #33, .T. ) ;
#158 = ADVANCED_FACE ( 'NONE', ( #112, #185 ), #214, .F. ) ;
#159 = VECTOR ( 'NONE', #48, 1000.000000000000000 ) ;
#160 = APPLICATION_CONTEXT ( 'configuration controlled 3d designs of mechanical parts and assemblies' ) ;
#161 = ORIENTED_EDGE ( 'NONE', *, *, #82, .F. ) ;
#162 = ADVANCED_FACE ( 'NONE', ( #66 ), #138, .F. ) ;
#163 = DIRECTION ( 'NONE',  ( -1.000000000000000000, -0.000000000000000000, -0.000000000000000000 ) ) ;
#164 = APPLICATION_PROTOCOL_DEFINITION ( 'international standard', 'config_control_design', 1994, #160 ) ;
#165 = VECTOR ( 'NONE', #227, 1000.000000000000000 ) ;
#166 = CARTESIAN_POINT ( 'NONE',  ( -3.000000000000000000, 10.00000000000000000, 0.000000000000000000 ) ) ;
#167 = PERSON_AND_ORGANIZATION ( #152, #142 ) ;
#168 = DIRECTION ( 'NONE',  ( -1.000000000000000000, -0.000000000000000000, -0.000000000000000000 ) ) ;
#169 = PERSON_AND_ORGANIZATION_ROLE ( 'classification_officer' ) ;
#170 = CC_DESIGN_PERSON_AND_ORGANIZATION_ASSIGNMENT ( #167, #169, ( #276 ) ) ;
#171 = CARTESIAN_POINT ( 'NONE',  ( -1.614212418857619014, 0.000000000000000000, 0.000000000000000000 ) ) ;
#172 = SECURITY_CLASSIFICATION_LEVEL ( 'unclassified' ) ;
#173 = CARTESIAN_POINT ( 'NONE',  ( 2.999999999999999112, 0.000000000000000000, 0.000000000000000000 ) ) ;
#174 =( LENGTH_UNIT ( ) NAMED_UNIT ( * ) SI_UNIT ( .MILLI., .METRE. ) );
#175 = ORIENTED_EDGE ( 'NONE', *, *, #313, .T. ) ;
#176 = CARTESIAN_POINT ( 'NONE',  ( -3.000000000000000444, 0.000000000000000000, 10.00000000000000000 ) ) ;
#177 = ORIENTED_EDGE ( 'NONE', *, *, #313, .F. ) ;
#178 = FACE_OUTER_BOUND ( 'NONE', #294, .T. ) ;
#179 = VERTEX_POINT ( 'NONE', #15 ) ;
#180 = ADVANCED_FACE ( 'NONE', ( #289 ), #62, .F. ) ;
#181 = EDGE_LOOP ( 'NONE', ( #28, #231 ) ) ;
#182 = FACE_OUTER_BOUND ( 'NONE', #205, .T. ) ;
#183 = EDGE_CURVE ( 'NONE', #102, #322, #236, .T. ) ;
#184 = DIRECTION ( 'NONE',  ( 0.000000000000000000, 0.000000000000000000, 1.000000000000000000 ) ) ;
#185 = FACE_OUTER_BOUND ( 'NONE', #22, .T. ) ;
#186 = PERSON_AND_ORGANIZATION ( #152, #142 ) ;
#187 = AXIS2_PLACEMENT_3D ( 'NONE', #327, #323, #91 ) ;
#188 = VERTEX_POINT ( 'NONE', #96 ) ;
#189 = FACE_OUTER_BOUND ( 'NONE', #181, .T. ) ;
#190 = EDGE_CURVE ( 'NONE', #280, #99, #283, .T. ) ;
#191 = DATE_AND_TIME ( #242, #42 ) ;
#192 = DIRECTION ( 'NONE',  ( -1.000000000000000000, -0.000000000000000000, -0.000000000000000000 ) ) ;
#193 = DIRECTION ( 'NONE',  ( 1.000000000000000000, 0.000000000000000000, 0.000000000000000000 ) ) ;
#194 = ORIENTED_EDGE ( 'NONE', *, *, #11, .T. ) ;
#195 = PLANE ( 'NONE',  #223 ) ;
#196 = PERSON_AND_ORGANIZATION_ROLE ( 'creator' ) ;
#197 = CC_DESIGN_PERSON_AND_ORGANIZATION_ASSIGNMENT ( #293, #196, ( #89 ) ) ;
#198 =( GEOMETRIC_REPRESENTATION_CONTEXT ( 3 ) GLOBAL_UNCERTAINTY_ASSIGNED_CONTEXT ( ( #120 ) ) GLOBAL_UNIT_ASSIGNED_CONTEXT ( ( #174, #130, #98 ) ) REPRESENTATION_CONTEXT ( 'NONE', 'WORKASPACE' ) );
#199 = DIRECTION ( 'NONE',  ( 0.000000000000000000, 0.000000000000000000, -1.000000000000000000 ) ) ;
#200 = DIRECTION ( 'NONE',  ( -1.000000000000000000, -0.000000000000000000, -0.000000000000000000 ) ) ;
#201 = AXIS2_PLACEMENT_3D ( 'NONE', #173, #20, #149 ) ;
#202 = DIRECTION ( 'NONE',  ( -1.000000000000000000, -0.000000000000000000, -0.000000000000000000 ) ) ;
#203 = ORIENTED_EDGE ( 'NONE', *, *, #238, .T. ) ;
#204 = FACE_OUTER_BOUND ( 'NONE', #113, .T. ) ;
#205 = EDGE_LOOP ( 'NONE', ( #53, #314 ) ) ;
#206 = CIRCLE ( 'NONE', #187, 12.69999999999999929 ) ;
#207 = CARTESIAN_POINT ( 'NONE',  ( -1.614212418857619014, 0.000000000000000000, 10.00000000000000000 ) ) ;
#208 = ORIENTED_EDGE ( 'NONE', *, *, #128, .T. ) ;
#209 = ADVANCED_FACE ( 'NONE', ( #178 ), #19, .F. ) ;
#210 = AXIS2_PLACEMENT_3D ( 'NONE', #171, #36, #64 ) ;
#211 = DIRECTION ( 'NONE',  ( 0.000000000000000000, 0.000000000000000000, -1.000000000000000000 ) ) ;
#212 = PERSON_AND_ORGANIZATION ( #152, #142 ) ;
#213 = EDGE_CURVE ( 'NONE', #99, #239, #153, .T. ) ;
#214 = PLANE ( 'NONE',  #67 ) ;
#215 = APPROVAL_ROLE ( '' ) ;
#216 = ORIENTED_EDGE ( 'NONE', *, *, #60, .F. ) ;
#217 = AXIS2_PLACEMENT_3D ( 'NONE', #292, #39, #184 ) ;
#218 = AXIS2_PLACEMENT_3D ( 'NONE', #251, #226, #330 ) ;
#219 = CARTESIAN_POINT ( 'NONE',  ( -1.614212418857619014, 0.000000000000000000, 0.000000000000000000 ) ) ;
#220 = COORDINATED_UNIVERSAL_TIME_OFFSET ( 8, 0, .AHEAD. ) ;
#221 = CYLINDRICAL_SURFACE ( 'NONE', #32, 10.00000000000000000 ) ;
#222 = SHAPE_DEFINITION_REPRESENTATION ( #43, #306 ) ;
#223 = AXIS2_PLACEMENT_3D ( 'NONE', #118, #237, #136 ) ;
#224 = DIRECTION ( 'NONE',  ( -1.000000000000000000, -0.000000000000000000, -0.000000000000000000 ) ) ;
#225 = CC_DESIGN_PERSON_AND_ORGANIZATION_ASSIGNMENT ( #212, #319, ( #278 ) ) ;
#226 = DIRECTION ( 'NONE',  ( 1.000000000000000000, 0.000000000000000000, 0.000000000000000000 ) ) ;
#227 = DIRECTION ( 'NONE',  ( -1.000000000000000000, -0.000000000000000000, -0.000000000000000000 ) ) ;
#228 = CIRCLE ( 'NONE', #51, 10.00000000000000000 ) ;
#229 = EDGE_LOOP ( 'NONE', ( #177, #150 ) ) ;
#230 = CARTESIAN_POINT ( 'NONE',  ( -3.000000000000000000, 0.000000000000000000, 12.69999999999999929 ) ) ;
#231 = ORIENTED_EDGE ( 'NONE', *, *, #128, .F. ) ;
#232 = ORIENTED_EDGE ( 'NONE', *, *, #302, .F. ) ;
#233 = VECTOR ( 'NONE', #192, 1000.000000000000000 ) ;
#234 = CARTESIAN_POINT ( 'NONE',  ( 2.999999999999999112, 0.000000000000000000, 0.000000000000000000 ) ) ;
#235 = CIRCLE ( 'NONE', #218, 10.00000000000000000 ) ;
#236 = CIRCLE ( 'NONE', #255, 10.00000000000000000 ) ;
#237 = DIRECTION ( 'NONE',  ( -1.000000000000000000, 0.000000000000000000, -0.000000000000000000 ) ) ;
#238 = EDGE_CURVE ( 'NONE', #49, #102, #124, .T. ) ;
#239 = VERTEX_POINT ( 'NONE', #230 ) ;
#240 = CARTESIAN_POINT ( 'NONE',  ( 2.500000000000000888, 0.000000000000000000, 10.00000000000000000 ) ) ;
#241 = DESIGN_CONTEXT ( 'detailed design', #5, 'design' ) ;
#242 = CALENDAR_DATE ( 2020, 22, 12 ) ;
#243 = CYLINDRICAL_SURFACE ( 'NONE', #210, 12.69999999999999929 ) ;
#244 = APPROVAL_STATUS ( 'not_yet_approved' ) ;
#245 = CIRCLE ( 'NONE', #24, 10.00000000000000000 ) ;
#246 = DIRECTION ( 'NONE',  ( -1.000000000000000000, -0.000000000000000000, -0.000000000000000000 ) ) ;
#247 = DATE_AND_TIME ( #270, #295 ) ;
#248 = CIRCLE ( 'NONE', #18, 12.69999999999999929 ) ;
#249 = CC_DESIGN_SECURITY_CLASSIFICATION ( #276, ( #89 ) ) ;
#250 = EDGE_CURVE ( 'NONE', #30, #179, #27, .T. ) ;
#251 = CARTESIAN_POINT ( 'NONE',  ( -2.500000000000000444, 0.000000000000000000, 0.000000000000000000 ) ) ;
#252 = MANIFOLD_SOLID_BREP ( 'Ðý×', #2 ) ;
#253 = DIRECTION ( 'NONE',  ( 0.000000000000000000, 0.000000000000000000, 1.000000000000000000 ) ) ;
#254 = DIRECTION ( 'NONE',  ( 1.000000000000000000, 0.000000000000000000, 0.000000000000000000 ) ) ;
#255 = AXIS2_PLACEMENT_3D ( 'NONE', #116, #200, #101 ) ;
#256 = CC_DESIGN_DATE_AND_TIME_ASSIGNMENT ( #191, #10, ( #17 ) ) ;
#257 = VERTEX_POINT ( 'NONE', #281 ) ;
#258 = DIRECTION ( 'NONE',  ( -1.000000000000000000, -0.000000000000000000, -0.000000000000000000 ) ) ;
#259 = ORIENTED_EDGE ( 'NONE', *, *, #82, .T. ) ;
#260 = ORIENTED_EDGE ( 'NONE', *, *, #190, .F. ) ;
#261 = PLANE ( 'NONE',  #135 ) ;
#262 = AXIS2_PLACEMENT_3D ( 'NONE', #59, #168, #140 ) ;
#263 = FACE_OUTER_BOUND ( 'NONE', #154, .T. ) ;
#264 = EDGE_CURVE ( 'NONE', #257, #30, #265, .T. ) ;
#265 = CIRCLE ( 'NONE', #201, 10.00000000000000000 ) ;
#266 = DIRECTION ( 'NONE',  ( 0.000000000000000000, 0.000000000000000000, 1.000000000000000000 ) ) ;
#267 = APPROVAL_PERSON_ORGANIZATION ( #186, #34, #215 ) ;
#268 = CARTESIAN_POINT ( 'NONE',  ( -2.500000000000000444, 0.000000000000000000, 0.000000000000000000 ) ) ;
#269 = CARTESIAN_POINT ( 'NONE',  ( -3.000000000000000000, 0.000000000000000000, 0.000000000000000000 ) ) ;
#270 = CALENDAR_DATE ( 2020, 22, 12 ) ;
#271 = ORIENTED_EDGE ( 'NONE', *, *, #108, .F. ) ;
#272 = LINE ( 'NONE', #143, #233 ) ;
#273 = CARTESIAN_POINT ( 'NONE',  ( 0.000000000000000000, 0.000000000000000000, 0.000000000000000000 ) ) ;
#274 = CC_DESIGN_PERSON_AND_ORGANIZATION_ASSIGNMENT ( #139, #16, ( #17 ) ) ;
#275 = ADVANCED_FACE ( 'NONE', ( #204 ), #52, .T. ) ;
#276 = SECURITY_CLASSIFICATION ( '', '', #172 ) ;
#277 = LINE ( 'NONE', #71, #165 ) ;
#278 = PRODUCT ( 'Q-OZHWP-R2-20-532-M', 'Q-OZHWP-R2-20-532-M', '', ( #58 ) ) ;
#279 = CARTESIAN_POINT ( 'NONE',  ( -1.614212418857619014, 1.555301434917138433E-15, -12.69999999999999929 ) ) ;
#280 = VERTEX_POINT ( 'NONE', #155 ) ;
#281 = CARTESIAN_POINT ( 'NONE',  ( 2.999999999999999112, 0.000000000000000000, 10.00000000000000000 ) ) ;
#282 = ORIENTED_EDGE ( 'NONE', *, *, #11, .F. ) ;
#283 = LINE ( 'NONE', #279, #115 ) ;
#284 = CC_DESIGN_APPROVAL ( #324, ( #276 ) ) ;
#285 = EDGE_LOOP ( 'NONE', ( #320, #107, #208, #282 ) ) ;
#286 = LINE ( 'NONE', #207, #41 ) ;
#287 = CARTESIAN_POINT ( 'NONE',  ( 3.000000000000000000, 0.000000000000000000, 0.000000000000000000 ) ) ;
#288 = APPROVAL ( #7, 'UNSPECIFIED' ) ;
#289 = FACE_OUTER_BOUND ( 'NONE', #132, .T. ) ;
#290 = APPLICATION_PROTOCOL_DEFINITION ( 'international standard', 'config_control_design', 1994, #5 ) ;
#291 = ORIENTED_EDGE ( 'NONE', *, *, #331, .T. ) ;
#292 = CARTESIAN_POINT ( 'NONE',  ( -1.614212418857619014, 0.000000000000000000, 0.000000000000000000 ) ) ;
#293 = PERSON_AND_ORGANIZATION ( #152, #142 ) ;
#294 = EDGE_LOOP ( 'NONE', ( #129, #161 ) ) ;
#295 = LOCAL_TIME ( 17, 16, 47.00000000000000000, #94 ) ;
#296 = FACE_OUTER_BOUND ( 'NONE', #315, .T. ) ;
#297 = PERSON_AND_ORGANIZATION ( #152, #142 ) ;
#298 = CARTESIAN_POINT ( 'NONE',  ( -2.500000000000000444, 1.224646799147353256E-15, -10.00000000000000000 ) ) ;
#299 = CALENDAR_DATE ( 2020, 22, 12 ) ;
#300 = DIRECTION ( 'NONE',  ( 1.000000000000000000, 0.000000000000000000, 0.000000000000000000 ) ) ;
#301 = DATE_AND_TIME ( #14, #106 ) ;
#302 = EDGE_CURVE ( 'NONE', #188, #239, #277, .T. ) ;
#303 = DIRECTION ( 'NONE',  ( -1.000000000000000000, -0.000000000000000000, -0.000000000000000000 ) ) ;
#304 = AXIS2_PLACEMENT_3D ( 'NONE', #25, #254, #199 ) ;
#305 = DIRECTION ( 'NONE',  ( 0.000000000000000000, 0.000000000000000000, 1.000000000000000000 ) ) ;
#306 = ADVANCED_BREP_SHAPE_REPRESENTATION ( 'Q-OZHWP-R2-20-532-M', ( #252, #144 ), #198 ) ;
#307 = CARTESIAN_POINT ( 'NONE',  ( -1.614212418857619014, 0.000000000000000000, 0.000000000000000000 ) ) ;
#308 = DIRECTION ( 'NONE',  ( 0.000000000000000000, 0.000000000000000000, 1.000000000000000000 ) ) ;
#309 = PRODUCT_RELATED_PRODUCT_CATEGORY ( 'detail', '', ( #278 ) ) ;
#310 = CARTESIAN_POINT ( 'NONE',  ( -3.000000000000000000, 0.000000000000000000, 0.000000000000000000 ) ) ;
#311 = ORIENTED_EDGE ( 'NONE', *, *, #44, .T. ) ;
#312 = ORIENTED_EDGE ( 'NONE', *, *, #60, .T. ) ;
#313 = EDGE_CURVE ( 'NONE', #322, #102, #245, .T. ) ;
#314 = ORIENTED_EDGE ( 'NONE', *, *, #75, .F. ) ;
#315 = EDGE_LOOP ( 'NONE', ( #260, #334, #326, #74 ) ) ;
#316 = CIRCLE ( 'NONE', #147, 10.00000000000000000 ) ;
#317 = ADVANCED_FACE ( 'NONE', ( #73 ), #329, .F. ) ;
#318 = DIRECTION ( 'NONE',  ( 0.000000000000000000, 0.000000000000000000, 1.000000000000000000 ) ) ;
#319 = PERSON_AND_ORGANIZATION_ROLE ( 'design_owner' ) ;
#320 = ORIENTED_EDGE ( 'NONE', *, *, #1, .F. ) ;
#321 = DIRECTION ( 'NONE',  ( -1.000000000000000000, -0.000000000000000000, -0.000000000000000000 ) ) ;
#322 = VERTEX_POINT ( 'NONE', #176 ) ;
#323 = DIRECTION ( 'NONE',  ( -1.000000000000000000, -0.000000000000000000, -0.000000000000000000 ) ) ;
#324 = APPROVAL ( #244, 'UNSPECIFIED' ) ;
#325 = APPROVAL_DATE_TIME ( #301, #34 ) ;
#326 = ORIENTED_EDGE ( 'NONE', *, *, #302, .T. ) ;
#327 = CARTESIAN_POINT ( 'NONE',  ( 3.000000000000000000, 0.000000000000000000, 0.000000000000000000 ) ) ;
#328 = DATE_AND_TIME ( #299, #4 ) ;
#329 = CYLINDRICAL_SURFACE ( 'NONE', #78, 10.00000000000000000 ) ;
#330 = DIRECTION ( 'NONE',  ( 0.000000000000000000, 0.000000000000000000, -1.000000000000000000 ) ) ;
#331 = EDGE_CURVE ( 'NONE', #103, #49, #235, .T. ) ;
#332 = DIRECTION ( 'NONE',  ( -1.000000000000000000, 0.000000000000000000, -0.000000000000000000 ) ) ;
#333 = CARTESIAN_POINT ( 'NONE',  ( -1.614212418857619014, 1.224646799147353256E-15, -10.00000000000000000 ) ) ;
#334 = ORIENTED_EDGE ( 'NONE', *, *, #75, .T. ) ;
#335 = DIRECTION ( 'NONE',  ( -1.000000000000000000, -0.000000000000000000, -0.000000000000000000 ) ) ;
ENDSEC;
END-ISO-10303-21;
